Skladba: Pohádka
Autor: Pokáč
Intro:
Am Fmaj7 G Am
e|-------|----------------|----------------|---------------|-------------3-0-|
B|-1p0---|----1-----0h1---|----1-----1p0-3-|---3-----1-0---|----1---1h3p1----|
G|-----2-|--2---2-------2-|--2---2---------|-0---0-------0-|--2---2----------|
D|-------|--------2-------|3---------------|---------------|-----------------|
A|-------|0---------------|--------0-------|-------2-------|0----------------|
E|-------|----------------|----------------|3--------------|-----------------|
Am Fmaj7 G Am
e|-------------3-----|----------------|------------------|----------------|
B|----1---1h3p1--3-0-|----1-----1p0-3-|----0-------0h1p0-|----1-----------|
G|--2---2------------|--2---2---------|--0---0-----------|--2---2---------|
D|-------------------|3---------------|------------------|----------------|
A|0------------------|--------0-------|--------2---------|0---------------|
E|-------------------|----------------|3-----------------|----------------|
(h: Hammer-on / p: Pull-off )
Ami F
za devatero horami devatero řekami
G Ami
za oceánem s devíti ropnými skvrnami
F
tam žije kdesi v lesích princezna jako poupě
G Ami
co má místo království pervitinový doupě
tu princeznu pro její závislost na koksu
uvrhli do vězení v královskym detoxu
no a já budu první princ, co ji dostane ven
jsem rytíř bez brnění, jen s abstinenčnim třesem
mezihra
do rance před cestou narvu ještě pár buchet s trávou
pak natáhnu dva pávy a zapiju to kávou
buďte tu všichni zdrávi já musim pro nevěstu
ještě skočim do lékárny koupit pernik na cestu
Ref:
Ami F
přede mnou je teď štreka daleká
D E
ale mě táhne vědomí že na mě někde princezna čeká
Ami F
ta nejhezčí z nejhezčích, která by hned nabídla mi
G Ami
svou otevřenou náruč s otevřenými žílami
jdu cestou necestou, řekou neřekou, lesem
nelesem vynechává mi dech, netušim kde sem
zničehonic před sebou zahlídnu v kapradí
kouzelnou babču s dědou, snad mi poradí
zdravim: "brý den staříci, kudy za princeznou?"
prej že mi to řeknou, když jim dam jednu plíci
po chvíli přemejšlení odpovídam tak fajn
ale na uklidnění si ještě šlehnu pár lajn
mezihra
tak se se staříky loučim a na cestu se vracim
operace proběhla bez větších komplikací
jenom tu a tam zvracim oči mě strašně pálí
takže je mi vlastně stejně jako předtim, možná líp
Ref:
Ami F
a jdu dál, jdu za svou vyvolenou
D E
z absence nikotinu se mi nohy podlamujou v kolenou
Ami F
ještě že sám v ranci mám ňáký energy drinky
G Ami
a buchty s halucinogenními účinky
mezihra
v totálním vysílení po dnech a tejdnech bdění
jsem dorazil k detoxikačnímu zařízení
jen silou vůle hledám celu, ze které mám
nejkrásnější z princezen dostat co nejrychlejc ven
když najednou uvidím, jak na mě z dálky mává
kdosi s modrým předloktím, to bude ta pravá
ale s vysvobozením to nebude jenom tak
její komnatu střeží strašlivý drak Hašišák
mezihra
neměj strach lásko, já tý stvůře uštědřim lekci
nebojácně běžim k drakovi a tasim injekci
jsem však konsternován, když na mě rozevře chřtán
ale v tu chvíli mě napadne geniální plán
Ref:
Ami F
jak uvolnit priceznu ze zajetí
D E
než bys řekl hašiš ranec s buchtama mu do tlamy letí
Ami F
má poslední naděje, drak zdá se, nevnímá kde je
G Ami
no a za chvíli už se nepřítomně směje
tak jsme se s princeznou přes okno políbili
ona vevnitř, já venku, oděrka na oděrku
tam za horami, za řekami
za oceánem s devíti ropnými skvrnami

Akordy kytara:
Ami, F, G, D, E
kytara akord Ami (YouSongs.cz)kytara akord F (YouSongs.cz)kytara akord G (YouSongs.cz)kytara akord D (YouSongs.cz)kytara akord E (YouSongs.cz)
Akordy ukulele:
ukulele akord Ami (YouSongs.cz)ukulele akord F (YouSongs.cz)ukulele akord G (YouSongs.cz)ukulele akord D (YouSongs.cz)ukulele akord E (YouSongs.cz)
Zpět na hlavní stránku

Pokáč - Pohádka [text a akordy na YouSongs.cz]