Skladba: Under the Bridge
Intro
D F# D
e|---------------------!---------------------!--------------___----------|
b|(1)------1-----------!(0)------------------!-------------1-3-1---------|
g|-----0-----0---------!---------1-----------!---------0---------0-------|
d|---2---2-------------!-----2-----2-2-0-----!-----2---------------2/4-4-|
a|-3-----------2-0-----!---2---2---------3-0-!-2/3---3---3---------3/5-5-|
E|-----------------3-2-!-0-------------------!---------------------------|
F# D F#
e|---------------------!-------------------------!---------------------|
b|-0-------------------!-------------1-----------!---------------------|
g|---------1-----------!---------0-----0---------!---------1-----------|
d|-----2-----2-2-0-----!-----2-----2-------------!-----2-----2-2-0-----|
a|---2---2---------3-0-!-2/3---3---------2-0-----!---2---2---------3-0-|
E|-0-------------------!---------------------3-2-!-0-------------------|
D F#
e|--------------___----------!-----------------------|
b|-------------1-3-1---------!-----------------------|
g|---------0---------0-------!---------1-----1-------|
d|-----2-----2---------2/4-4-!-----2-----2-----2-----|
a|-2/3---3-------------3/5-5-!---2---2-----2-----2/5-|
E|---------------------------!-0---------------------|
E B C#m B A
Sometimes I feel like I don't have a partner
E B C#m A
Sometimes Ifeel like my only friend
E B C#m B A
Is the city I live in the City of Angels
E B
Lonely as I am
C#m A Emaj7
Together we cry
I drive on her streets 'cause she's my companion
I walk through her hills 'cause she knows who I am
She sees my good deeds and she kisses me windy
I never worry
Now that is a lie.
chorus 1
F#m.. E
I don't ever want to feel
B F#m
Like I did that day
F#m.. E
Take me to the place I love
B F#m
Take me all way
F#m.. E
I don't ever want to feel
B F#m
Like I did that day
F#m.. E
Take me to the place I love
B F#m E B C#m A
Take me all way Oh_____ [B]
E C#m
[B][A]
It's hard to believe there's nobody out there
It's hard to believe that I'm all alone
At least I got her love the city she loves me
Lonely as I am
Together we cry
chorus 2
F#m.. E
I don't ever want to feel
B F#m
Like I did that day
F#m.. E
Take me to the place I love
B F#m
Take me all way
F#m.. E
I don't ever want to feel
B F#m
Like I did that day
F#m.. E
Take me to the place I love
B F#m
Take me all way
A. C G6 Fmaj7
Ay___Ay___Ya Ya
A. C G6 Fmaj7
Oh, no__ no no__ yea yea!__
A. C G6 Fmaj7
Love__ me__ I say__ yea yea!__
Fmaj7.. E7 G
A. C
Under the bridge downtown
G6 Fmaj7
Is where I drew some blood
A. C
Under the bridge downtown
G6 Fmaj7
I could not get enough
A. C
Under the bridge downtown
G6 Fmaj7
Forgot about my love
A. C
Under the bridge downtown
G6 Fmaj7
I gave my life away
A. C G6 Fmaj7
Ay___Ay___Ya Ya
A. C G6 Fmaj7
Oh, no__ no no__ yea yea!__
A. C G6 Fmaj7
Down__ town__ I say__ yea yea!__
A. C G6 Fmaj7
Will I stay
And now the outro
A C G6 ? A C
let ring--------- let ring--------
e:-0-0-0--0-------------:-0-0---0------_---0---|-0--0-0------------_----|
b:-5-5-5--5-5--5-5--5-5-:-3-3---0-----0 1----1-|-5--5-5--5--5-5-5-8 5-5-|
g:-6-6-6--6-5--5-5--5-5-:-4-4---2--------------|-6--6-6--5--5-5-5-5-----|
d:-7-7-7--7-5--5-5--5-5-:-5-5---3--------------|-7--7-7--5--5-5-5-------|
a:----------------------:----------------------|------------------------|
E:----------------------:----------------------|------------------------|
G6 Fmaj7 A C G6 Fmaj7
let ring------ let ring----
e:-0--0-0--0---0--___----:-0--0-0---------_----:-0--0-0--0---0--0-0--|
b:-3--3-3--0---1-0 1 0---:-5--5-5-5--5-5-8 5---:-3--3-3--0---1--1-1/-|
g:-4--4-4--2---2-------2-:-6--6-6-5--5-5-----5-:-4--4-4--2---2--2-2/-|
d:-5--5-5--3---3---------:-7--7-7-5--7-7-------:-5--5-5--3---3--3-3/-|
a:-----------------------:---------------------:---------------------|
E:-----------------------:---------------------:---------------------|
A C G6 Fmaj7 A
let ring------- let ring-
e|-0--0-0-------------------|-0-------0---0-|----0------|
b|-5--5-5---5--5-5--5-------|-3--3----0---1-|----2------|
g|-6--6-6---5--5-5--5 7 5---|-4----0--2---2-|----2------|
d|-7--7-7---5--5-5---___--7-|-5-------3---3-|----2------|
a|--------------------------|---------------|----0------|
E|--------------------------|---------------|-----------|

Akordy kytara:
E, B, C#m, A, Emaj7, F#m.., F#m, A., C, G6, Fmaj7, Fmaj7.., E7, G
kytara akord E (YouSongs.cz)kytara akord B (YouSongs.cz)kytara akord C#m (YouSongs.cz)kytara akord A (YouSongs.cz)kytara akord Emaj7 (YouSongs.cz)kytara akord F#m (YouSongs.cz)kytara akord C (YouSongs.cz)kytara akord G6 (YouSongs.cz)kytara akord Fmaj7 (YouSongs.cz)kytara akord E7 (YouSongs.cz)kytara akord G (YouSongs.cz)
Akordy ukulele:
ukulele akord E (YouSongs.cz)ukulele akord B (YouSongs.cz)ukulele akord C#m (YouSongs.cz)ukulele akord A (YouSongs.cz)ukulele akord F#m (YouSongs.cz)ukulele akord C (YouSongs.cz)ukulele akord E7 (YouSongs.cz)ukulele akord G (YouSongs.cz)
Zpět na hlavní stránku

Red Hot Chili Peppers - Under the Bridge [text a akordy na YouSongs.cz]