Skladba: Everything
Intro:
e|-------------------------------------------------------------------------|
B|--7-------7---5----------7-------7---5-----------7------7--5-----7--5----|
G|-----------------7--7-------------------7--7-----------------7--------7-7|
D|7----7-6-------------6s7----7-6-------------6s7----7-6--------6-5--------|
A|-------------------------------------------------------------------------|
E|-------------------------------------------------------------------------|
Verse 1:
D E
You're a falling star, You're the get away car.
G A D
You're the line in the sand when I go too far.
D E
You're the swimming pool, on an August day.
G A D
And You're the perfect thing to say.
Pre-Chorus 1:
D E
And you play it coy, but it's kinda cute.
G A D
Ah, When you smile at me you know exactly what you do.
D E
Baby don't pretend, that you don't know it's true.
G A D
Cause you can see it when I look at you.
Chorus:
G A D G A D
And in this crazy life, and through these crazy times
E G A D
It's you, it's you, You make me sing.
E G A D
You're every line, you're every word, you're everything.
Verse 2:
D E
You're a carousel, you're a wishing well,
G A D
And you light me up, when you ring my bell.
D E
You're a mystery, you're from outer space,
G A D
You're every minute of my everyday.
Pre-Chorus 2:
D E
And I can't believe, uh that I'm your man,
G A D
And I get to kiss you baby just because I can.
D E
Whatever comes our way, ah we'll see it through,
G A D
And you know that's what our love can do.
Chorus:
G A D G A D
And in this crazy life, and through these crazy times
E G A D
It's you, it's you, You make me sing.
E G A D
You're every line, you're every word, you're everything.
Solo:
e|---------------------------------------------------------------------------|
B|---------------------------------------------------------------------------|
G|--------------9/11p9-9p7---7--7-7h9-7--------77-66---------9/11p9-9p7------|
D|--0-0-0-0---7------------9----7-7---7----00--------99-7-6-------------9----|
A|----------9----------------------------------------------------------------|
E|---------------------------------------------------------------------------|
e|---------------------------------------------------------------------------|
B|--7--10-8-7----------------------------------------------------------------|
G|--7--7--7-7--9p7---7-------------------------------------------------------|
D|-----------------9---------------------------------------------------------|
A|---------------------------------------------------------------------------|
E|---------------------------------------------------------------------------|
Bridge:
D E G A D
So, La, La, La, La, La, La, La
D E G A D
So, La, La, La, La, La, La, La
Chorus
A B E A B E
And in this crazy life, and through these crazy times
E F# E C# A B C#
It's you, it's you, You make me sing.
F# A A C# E
You're every line, you're every word, you're everything.
Post-Chorus:
A B E
You’re every song. And I sing Along, cause you’re my everything.
e|-------------------------------------------------------------------------|
B|--9-------9---7----------9-------9---7-----------9------9--7-----9--7----|
G|-----------------9--9-------------------9--9-----------------9--------9-9|
D|9----9-8-------------8s9----9-8-------------8s9----9-8--------8-7--------|
A|-------------------------------------------------------------------------|
D|-------------------------------------------------------------------------|
Bridge:
E F# A B E
So, La, La, La, La, La, La, La
E F# A B E
So, La, La, La, La, La, La, La
************************************
| h Hammer-on
| p Pull-off
| / Slide up
| s Slide
************************************

Akordy kytara:
D, E, G, A, B, F#, C#
kytara akord D (YouSongs.cz)kytara akord E (YouSongs.cz)kytara akord G (YouSongs.cz)kytara akord A (YouSongs.cz)kytara akord B (YouSongs.cz)kytara akord F# (YouSongs.cz)kytara akord C# (YouSongs.cz)
Akordy ukulele:
ukulele akord D (YouSongs.cz)ukulele akord E (YouSongs.cz)ukulele akord G (YouSongs.cz)ukulele akord A (YouSongs.cz)ukulele akord B (YouSongs.cz)ukulele akord F# (YouSongs.cz)ukulele akord C# (YouSongs.cz)
Zpět na hlavní stránku

Bublé Michael - Everything [text a akordy na YouSongs.cz]