Skladba: Rovná hora
Autor: Arzén
Videa ke skladbě 1

Videa ke skladbě

Přidat video
Intro:
E||------------------------|---------------------|------------------------|
B||----------8-7-----------|---------------------|----------8-7-----------|
G||------5-7---------------|--5--7---------------|------5-7---------------|
D||--5-7-------------------|--------7------------|--5-7-------------------|
A||------------------------|---------------------|------------------------|
E||------------------------|---------------------|------------------------|
---------------------|------------------------|---------------------|
---------------------|----------8-7-----------|---------------------|
---------------------|------5-7---------------|--5--7---------------|
--5--4---------------|--5-7-------------------|--------7------------|
--------5------------|------------------------|---------------------|
---------------------|------------------------|---------------------|
------------------------|---------10--------||
----------8-7-----------|--8--10--10--------||
------5-7---------------|---------7---------||
--5-7-------------------|---------0---------||
------------------------|-------------------||
------------------------|-------------------||
D5 D5
1.Slnko vychodí nad horou, denne predo mnou Bože môj.
D5 D5
Radšej pomyslím na milú, krčmárku moju spanilú.
G C D5
Kým si pivo dám, tak ju pobozkám, je mi hej.
G C D5
A keď si ho dám, tak si zaspievam na zdravie.
D5 D5
2.Keď večer prídem ku milej, krčmárke mojej spanilej.
D5 D5
Vypijem si rád zopár pív, vždy mi je dobre, to sa oplatí.
G C D5
Kým si pivo dám, tak ju pobozkám, je mi hej.
G C A
A keď si ho dám, tak si zaspievam na zdravie.
Refrén:
G A/G D G A/D D
Hej rovná hora, moja rovná hora
G D C G C D
za Tebou som prišiel, krčmárka moja.
G A/G D G A/D D
Štyri dolinečky, piata rovienečka
G D C G C D
po nej sa prechodí moja frajerečka.
D, C
Medzihra: - 2x
G C D5
Kým si pivo dám, tak ju pobozkám, je mi hej.
G C A
A keď si ho dám, tak si zaspievam na zdravie.
Refrén:
G A/G D G A/D D
Hej rovná hora, moja rovná hora
G D C G C D
za Tebou som prišiel, krčmárka moja.
G A/G D G A/D D
Štyri dolinečky, piata rovienečka
G D C G C D
po nej sa prechodí moja frajerečka.
G A/G D G A/D D
Hej rovná hora, moja rovná hora
G D C G C D
za Tebou som prišiel, krčmárka moja.
G A/G D G A/D D
Štyri dolinečky, piata rovienečka
G D C G C D
po nej sa prechodí moja frajerečka.

Akordy kytara:
D5, G, C, A, A/G, D, A/D, D,
kytara akord G (YouSongs.cz)kytara akord C (YouSongs.cz)kytara akord A (YouSongs.cz)kytara akord D (YouSongs.cz)kytara akord A/D (YouSongs.cz)
Akordy ukulele:
ukulele akord G (YouSongs.cz)ukulele akord C (YouSongs.cz)ukulele akord A (YouSongs.cz)ukulele akord D (YouSongs.cz)
Zpět na hlavní stránku QR skladby

Arzén - Rovná hora [text a akordy na YouSongs.cz]

Podpoř interpreta

Arzén

Podpoř interpreta Arzén zakoupením skladby nebo alba.

fyzické CD | fyzické LP | stáhnout MP3 | stáhnout FLAC

Zobrazit nabídku skladeb