Skladba: Eat The Rich
Autor: Aerosmith
e-------------------------------------------------------
B-------------------------------------------------------
G-------------------------------------------------------
D---------7---------------------------------22---22-----
A----5h7------5h7------------5--------------22---22-----
E------------------3-----5-6---6-5---3--0---00---00-----
Riff played during verse (2):
e------------------------------------------------------
B------------------------------------------------------
G------------------------------------------------------
D------------------------------------------------------
A---------------5--0-----------------------------------
E---5--0--7--0--------7--0--4--0--5--0--6--0--7--0-----
Chords during verse (played right at the beginning of every line, under riff 2):
e-----5-----------3----
B-----5-----------3----
G-----2-----------0----
D-----2-----------2----
A-----2-----------2----
E-----------------0----
Esus4 Emin7
Chords during bridge:
e-------------------------
B------------------2----4-
G--------3---------2----4-
D---2----4----5----2----4-
A---2----4----5---------2-
E---0----2----3-----------
E5 F#7 G5 A B
Bridge:
E5 F#7 G5 A
And I'm sick of your complaing, about how many bills.....etc..
And I'm sick of all your bitchin,bout your poodles and your pills
And I just can't see no humour about your way of life,
B B B
And I think I can do more for you with this here fork and knife!
Chords during
Ref.:
e-------------------------
B-------3-----------------
G-------2-----------------
D--2----0----9----7----5--
A--2---------9----7----5--
E--0---------7----5----3--
E5 D5 B5 A5 G5
Ref.:
E5 D5 B5 A5 D5 B5 B5 A5 G5 E5 E5
Eat the rich, there's only one thing that they're good for etc...

Akordy kytara:
E5, F#7, G5, A, B, D5, B5, A5
kytara akord F#7 (YouSongs.cz)kytara akord A (YouSongs.cz)kytara akord B (YouSongs.cz)
Akordy ukulele:
ukulele akord F#7 (YouSongs.cz)ukulele akord A (YouSongs.cz)ukulele akord B (YouSongs.cz)
Zpět na hlavní stránku QR skladby

Aerosmith - Eat The Rich [text a akordy na YouSongs.cz]

Podpoř interpreta

Aerosmith

Podpoř interpreta Aerosmith zakoupením skladby nebo alba.

fyzické CD | fyzické LP | stáhnout MP3 | stáhnout FLAC

Zobrazit nabídku skladeb