Skladba: Holky
Autor: Alkehol
Videa ke skladbě 1

Videa ke skladbě

Přidat video
Emi C Ami D
Intro: , , ,
Intro tab:
E||----------------------------|---------------------------|----------------------|-
H||-8-5~-------13--8--5----|--5~---5-7-8----5----5--|--8----7-------------|-
G||----------------------------|---------------------------|------------7~-------|-
D||----------------------------|---------------------------|----------------------|-
A||----------------------------|---------------------------|----------------------|-
E||----------------------------|---------------------------|----------------------|-
--------------------------|-------------------------------|----------------|
-5~---5-7-8----5----5--|--12----10~-------12--12--|--10--8--5----|
--------------------------|-------------------------------|----------------|
--------------------------|-------------------------------|----------------|
--------------------------|-------------------------------|----------------|
--------------------------|-------------------------------|----------------|
-----------------------------------|------------------------|----------------------------||
--13--13--12~-10~-------10~-|----------7--8----5----|--5----8----7~~~~~~~~||
-----------------------------------|--9----9---------------|----------------------------||
-----------------------------------|------------------------|----------------------------||
-----------------------------------|------------------------|----------------------------||
-----------------------------------|------------------------|----------------------------||
G D Emi C
Plný časpisy nejakých cizích holek,
Tak ty nás nezajímaj a to bez pardónu.
Jó sou i hezký, ale co má bejt.
Pohledy maj chladný a sou plný silikónu.
Chlapi po nejch šílej, až sa im dělaj vrásky,
Kdyby se radši kolem sebe rozhlídli.
Nemněli by choutky na ty exotické krásky.
Pochopili by, že není nad křev a mlíko, je to tak!
Ref.:
Emi C Ami D
Český holky, hezký holky,
Emi C Ami D
to neni kouzlo, to neni sen,
Moravský holky, Slovenský holky,
v našich zemích je ich dost,
kdo by co víc chtěl, kdo by chtěl.
Tolik heskejch holek v naši malý zemi,
Jen blázen si myslí, že jich je tady málo.
Co by za ne dali kde koliv na světe,
A to neni sen i kdyby se vám to jen zdálo.
A tak teda holky, buďte na nás hodný,
Když takhle hezky o vás spíváme.
My totiž víme, že nás nikdy nesklamete,
A to mi víme, vdiť se na vás dívame. Je to tak!
Ref.:
Emi C Ami D
Český holky, hezký holky,
Emi C Ami D
to neni kouzlo, to neni sen,
Morarvský holky, Slovenský holky,
v našich zemích je ich dost,
kdo by co víc chtěl, kdo by chtěl.
G D Emi C
Plný časpisy nejakých cizích holek,
Tak ty nás nezajímaj a to bez pardónu.
Jó sou i hezký, ale co má bejt.
Pohledy maj chladný a sou plný silikónu.
Chlapi po nejch šílej, až sa im dělaj vrásky,
Kdyby se radši kolem sebe rozhlídli.
Nemněli by choutky na ty exotické krásky.
Pochopili by, že není nad křev a mlíko, je to tak!
Ref.:
Emi C Ami D
Český holky, hezký holky,
Emi C Ami D
to neni kouzlo, to neni sen,
Morarvský holky, Slovenský holky,
v našich zemích je ich dost,
kdo by co víc chtěl, kdo by chtěl.
Solo:
E||----------------------------|----------------------|----------------------------|
H||--5~---5-7-8----5----5--|--8----7-------------|--5~---5-7-8----5----5--|
G||----------------------------|------------7~-------|----------------------------|
D||----------------------------|----------------------|----------------------------|
A||----------------------------|----------------------|----------------------------|
E||----------------------------|----------------------|----------------------------|
------------------------------|-----------------|----------------------------------|
--12----10~-------12--12--|--10--8--5----|--13--13--12~-10~-------10~-|
------------------------------|-----------------|----------------------------------|
------------------------------|-----------------|----------------------------------|
------------------------------|-----------------|----------------------------------|
------------------------------|-----------------|----------------------------------|
------------------------|---------------------||
----------7--8----5----|--5----8----7~-----||
--9----9---------------|---------------------||
------------------------|---------------------||
------------------------|---------------------||
-----------------------|-----------------------||
Ref.:
Emi C Ami D
Český holky, hezký holky,
Emi C Ami D
to neni kouzlo, to neni sen,
Morarvský holky, Slovenský holky,
v našich zemích je ich dost,
kdo by co víc chtěl, kdo by chtěl.

Akordy kytara:
Emi, C, Ami, D, G
kytara akord Emi (YouSongs.cz)kytara akord C (YouSongs.cz)kytara akord Ami (YouSongs.cz)kytara akord D (YouSongs.cz)kytara akord G (YouSongs.cz)
Akordy ukulele:
ukulele akord Emi (YouSongs.cz)ukulele akord C (YouSongs.cz)ukulele akord Ami (YouSongs.cz)ukulele akord D (YouSongs.cz)ukulele akord G (YouSongs.cz)
Zpět na hlavní stránku QR skladby

Alkehol - Holky [text a akordy na YouSongs.cz]

Alkehol artist image on YouSongs

Podpoř interpreta

Alkehol

Podpoř interpreta Alkehol zakoupením skladby nebo alba.

fyzické CD | fyzické LP | stáhnout MP3 | stáhnout FLAC

Zobrazit nabídku skladeb