Skladba: ŽIvot je krátkej
Autor: Alkehol
Ami
F G Ami
Nebudu šetřit všechno utratím
F G Ami
nevím jak tu budu dlouho
F G Ami
kdy zubatá na dveře zaklepe
F G F G
možná už za chvilku pouhou
Ref.:
Ami F
Život je krátkej
C G
tak si ho užijem
Ami F
je krátkej
C G
na to se napijem
Ami F
je krátkej
C G
tak si ho užijem
Ami F G
ještě máme čas
1 život je krát kej
Ami F C G
2 svlíkat ženský do rána pít
1 život je krát kej
2 ráno vstát a večer zas jít
1 život je krát kej
2 všechny hříchy za hlavu dát
Ami F G
nebát se a vabank hrát
Sil máme dost a ještě můžem
oslavit každej další den
my nejsme žádný líný kůže
jednou se vyspíme pod drnem
Ref.:
solo
4 x život je krátkej
Ref.:
Jinak se dá hrát sloka asi takto:
E||------------------------||
B||------------------1-----||
G||--2----2----0--2--2--2--||
D||--2----2----0--2--2--2--||
A||--0----0----0--0-----0--||
E||------------------------|| Nebudu šetřit všechno
utratim
E||------------------------||
B||------------------1-----||
G||--2----2----0--2--2--2--||
D||--2----2----0--2--2--2--||
A||--0----0----0--0-----0--||
E||------------------------||Nevím jak tu budu
dlouho
E||------------------------||
B||------------------1-----||
G||--2----2----0--2--2--2--||
D||--2----2----0--2--2--2--||
A||--0----0----0--0-----0--||
E||------------------------||

Akordy kytara:
Ami, F, G, C
kytara akord Ami (YouSongs.cz)kytara akord F (YouSongs.cz)kytara akord G (YouSongs.cz)kytara akord C (YouSongs.cz)
Akordy ukulele:
ukulele akord Ami (YouSongs.cz)ukulele akord F (YouSongs.cz)ukulele akord G (YouSongs.cz)ukulele akord C (YouSongs.cz)
Zpět na hlavní stránku QR skladby

Alkehol - ŽIvot je krátkej [text a akordy na YouSongs.cz]

Alkehol artist image on YouSongs

Podpoř interpreta

Alkehol

Podpoř interpreta Alkehol zakoupením skladby nebo alba.

fyzické CD | fyzické LP | stáhnout MP3 | stáhnout FLAC

Zobrazit nabídku skladeb