Skladba: Tohle je ráj (akordy+sólo)
Autor: Argema
Videa ke skladbě 2

Videa ke skladbě

Přidat video
C Cadd9 C Cadd9 Ami Emi F G
C Ami
Před kým dveře zavíráš proč se stále schováváš
Emi F G
bojíš se prej nočních můr, kam to utíkáš, počkej na mě baby.
Pořád mě jen odmítáš, proč už něco neříkáš
blízko je už věčný ráj, tam tě nečekám, moje smutná Lady.
Ref.:
Ami Emi
Pojď ke mě a dej mi ruku ať jí políbím
Ami Emi
Tvé oči jsou tak blízko já ti nabízím
F G F G
nabízím toulání, poslouchej volání
C Ami F G
Tohle je ráj, tohle je ráj, tohle je ráj, tohle je ráj
Neboj se jít kousek blíž, konečně snad uvidíš
je to jako v pohádkách, jsi tak bláznivá, budu tě jen líbat.
Zavři oči neváhej, jenom kousek srdce dej,
polož hlavu na mou dlaň, teď už můžu sám na tebe se dívat.
Ref.:
Pojď ke mě ...
Solo:
C Ami F G
2x
C Ami
e|-------------12-12~-----12-15-12-|--------------------------------------|
h|-------13-15---------------------|-15-13~-------------------------------|
g|---/12---------------------------|--------------------------------------|
D|---------------------------------|--------------------------------------|
A|---------------------------------|----------------12-15-12~-------------|
E|---------------------------------|----------15-15-----------------------|
F G
e|-----------------------|------------------------------------------------|
h|-----------------------|------------------------------------------------|
g|-----------------------|------------------------------------------------|
D|----15-15-14-12-----/12|------------------------------------------------|
A|12~-------------15~----|-12/14-14/15-15/17-17/19-19/20-20\19-19\17-17\15|
E|-----------------------|------------------------------------------------|
C Ami
e|------------------------------------|-----------------------------------|
h|------------------------------------|-----------------------------------|
g|----12-12---------------------------|----12-12--------------------------|
D|-------------------------12---------|------------------------12---------|
A|-15-------15~---15-14-15----15-14-15|-12-------15~--15-14-15----15-14-15|
E|------------------------------------|-----------------------------------|
F
e|------------------------------------------------------------------------|
h|------------------------------------------------------------------------|
g|----------14--14h15p14h15p14-------------------14--14h15p14h15p14-------|
D|-------15--------------------15-------------15--------------------15----|
A|-12-15--------------------------15----12-15--------------------------15-|
E|------------------------------------------------------------------------|
|-P.M.-------| |-P.M.-------|
G
e|------------------------------------------------------------------------|
h|-------------------------------------------------------------20~--------|
g|-----------16--16h17p16h17p16---------------19--16h19p16----------------|
D|--------17--------------------17-------------------------17-------------|
A|--14-17--------------------------17-------------------------------------|
E|------------------------------------------------------------------------|
|-P.M.--------|
Ref.:
Pojď ke mě ...

Akordy kytara:
C, Cadd9, Ami, Emi, F, G
kytara akord C (YouSongs.cz)kytara akord Cadd9 (YouSongs.cz)kytara akord Ami (YouSongs.cz)kytara akord Emi (YouSongs.cz)kytara akord F (YouSongs.cz)kytara akord G (YouSongs.cz)
Akordy ukulele:
ukulele akord C (YouSongs.cz)ukulele akord Ami (YouSongs.cz)ukulele akord Emi (YouSongs.cz)ukulele akord F (YouSongs.cz)ukulele akord G (YouSongs.cz)
Zpět na hlavní stránku QR skladby

Argema - Tohle je ráj (akordy+sólo) [text a akordy na YouSongs.cz]

Argema artist image on YouSongs

Podpoř interpreta

Argema

Podpoř interpreta Argema zakoupením skladby nebo alba.

fyzické CD | fyzické LP | stáhnout MP3 | stáhnout FLAC

Zobrazit nabídku skladeb