Skladba: Nonstop bar sólo
e----------------------------0----------
h------------------0--------------------
g-------------0--------0---------------
D--------------------------------------
A---------------------------------------
E-----0---------------------------------
sólo
e-----------------------------------------
h-------------------------------------------
g------------7-7---9--7----12----9--------
D--7-9-7----------------------------------
A-------------------------------------------
E--------------------------------------------
e-----------12--15--12--17-17--12--------
h---------------------------------------------
g---------------------------------------------
D--------------------------------------------
A--------------------------------------------
E-------------------------------------------

Akordy kytara:

Akordy ukulele:
Zpět na hlavní stránku QR skladby

Brichta Aleš - Nonstop bar sólo [text a akordy na YouSongs.cz]

Podpoř interpreta

Brichta Aleš

Podpoř interpreta Brichta Aleš zakoupením skladby nebo alba.

fyzické CD | fyzické LP | stáhnout MP3 | stáhnout FLAC

Zobrazit nabídku skladeb