Skladba: Never Let Me Down Again
Videa ke skladbě 1

Videa ke skladbě

Přidat video
Intro-G riff:
E -3--1-3---3-3--3--1-3-1-3-||
B --------------------------||
G --------------------------||
D --------------------------||
A --------------------------||
E --------------------------||
Dmi C F D#
E ---------1---|---------1---|-------------|----------------|
B --3--1-3---3-|--3--1-3-----|---------1---|----------------|
G -------------|-----------2-|--2--0-2---2-|--2--2--0-2-0---|
D -------------|-------------|-------------|--------------3-|
A -------------|-------------|-------------|----------------|
E -------------|-------------|-------------|----------------|
verse:
Dmi C G riff
E ---------------|--8--6-8-----|-3--1-3---3-3--3--1-3-1-3-||
B --3--1-3--3-1--|----------8--|--------------------------||
G ---------------|-------------|--------------------------||
D ---------------|-------------|--------------------------||
A ---------------|-------------|--------------------------||
E ---------------|-------------|--------------------------||
chorus:
Cmi Bb Gm F
E -----8-----8-----|-----6-----6-----|-----------------|-----------3---3-||
B ---8---8-----8---|---6---6-----6---|-----8-----8-----|-----6---6---6---||
G -5-------5-----5-|-3-------3-----3-|---7---7-----7---|---5---5---------||
D -----------------|-----------------|-5-------5-----5-|-3---------------||
A -----------------|-----------------|-----------------|-----------------||
E -----------------|-----------------|-----------------|-----------------||
Dmi C
Im taking a ride
G
With my best friend
Dmi C G
I hope he never lets me down again
Dmi C
He knows where hes taking me
A Gmi
Taking me where I want to be
Dmi C
Im taking a ride
G
With my best friend
Cmi B
Were flying high
Gmi F
Were watching the world pass us by
Cmi B
Never want to come down
Gmi
Never want to put my feet back down
F
On the ground
Dmi C F D#
Im taking a ride
With my best friend
I hope he never lets me down again
Promises me Im as safe as houses
As long as I remember whos wearing the trousers
I hope he never lets me down again
Were flying high
Were watching the world pass us by
Never want to come down
Never want to put my feet back down
On the ground
Dmi C A Gmi
Dmi C
Never let me down
A Gmi
Never let me down
Dmi C
Never let medown
A Gmi
Never let me down
Dmi C
See the stars they~re shining bright
A Gmi
Everything is al
right tonight...

Akordy kytara:
Dmi, C, G, A, Gmi, Cmi, B, F, D#
kytara akord Dmi (YouSongs.cz)kytara akord C (YouSongs.cz)kytara akord G (YouSongs.cz)kytara akord A (YouSongs.cz)kytara akord Gmi (YouSongs.cz)kytara akord Cmi (YouSongs.cz)kytara akord B (YouSongs.cz)kytara akord F (YouSongs.cz)kytara akord D# (YouSongs.cz)
Akordy ukulele:
ukulele akord Dmi (YouSongs.cz)ukulele akord C (YouSongs.cz)ukulele akord G (YouSongs.cz)ukulele akord A (YouSongs.cz)ukulele akord Gmi (YouSongs.cz)ukulele akord Cmi (YouSongs.cz)ukulele akord B (YouSongs.cz)ukulele akord F (YouSongs.cz)ukulele akord D# (YouSongs.cz)
Zpět na hlavní stránku QR skladby

Depeche Mode - Never Let Me Down Again [text a akordy na YouSongs.cz]

Podpoř interpreta

Depeche Mode

Podpoř interpreta Depeche Mode zakoupením skladby nebo alba.

fyzické CD | fyzické LP | stáhnout MP3 | stáhnout FLAC

Zobrazit nabídku skladeb