Skladba: Strangelove
Em Em
e-----------------------------|------------------------------|
B-----------------------------|------------------------------|
G-------0-------2-----0-------|-------0--------2-2---0-------|
D----2------2-------------2---|----2------2--------------2---|
A-----------------------------|------------------------------|
E-----------------------------|------------------------------|
Am C
e-----------------------------|------------------------------|
B-----------------------------|------------------------------|
G-------0-------2-----0-------|-------0--------2-2---0-------|
D----2------2-------------2---|----2------2--------------2---|
A-----------------------------|------------------------------|
E-----------------------------|------------------------------|
Emi
There be times when my crimes
C D
will seem almost unforgiveble
Emi
I give in to sin
C D
becourse you have to make this life liveble
Emi
But when you think I've had enough from your sea of love
C D
I'll take more than another riverfull
Emi D Emi
Yes and I'll make it all worthwhile
C D
I'll make your heart smile
Ref.:
Emi Ami C
Strangelove strange highs and strange lows
Emi Ami C
Strangelove that's how my love goes
Emi
Strangelove
Ami D
will you give it to me
Emi
will you take the pain
Ami D
I will give to you
G
again and again
C D Emi+intro
and will you return it
e-----------------------------|------------------------------|
B-----------------------------|------------------------------|
G-------0-------2-----0-------|-------0--------2-2---0-------|
D----2------2-------------2---|----2------2--------------2---|
A-----------------------------|------------------------------|
E-----------------------------|------------------------------|
e-----------------------------|------------------------------|
B-----------------------------|------------------------------|
G-------0-------2-----0-------|-------0--------2-2---0-------|
D----2------2-------------2---|----2------2--------------2---|
A-----------------------------|------------------------------|
E-----------------------------|------------------------------|
There'll be days
When I'll stray
I may appear to be
Constantly out of reach
I give in
to sin
Because I like to practice what I preach
I'm not trying to say
I'll have it all my way
I'm always willing to learn
When you've got something to teach
And I'll make it all worth-while
I'll make your heart smile
Pain will you return it
I'll say it again -- pain
Pain will you return it
I won't say it again
Riff 1: Riff 2:
e----------------------| |---------------------|
B----------------------| |---------------------|
G------------0---4-----| |------------0---2----|
D----2---4-------------| |----2---4------------|
A----------------------| |---------------------|
E----------------------| |---------------------|
Riff 3:
e---------------------|
B----------------1----|
G------------0--------|
D----2---4------------|
A---------------------|
E---------------------|
Emi Riff1
Strangelove
Ami D
Strange highs and strange lows
Emi Riff2
Strangelove
Ami D
That's how my love goes
Emi Riff3
Strangelove
Ami D
Will you give it to me

Akordy kytara:
Emi, C, D, Ami, G, Emi+intro, Riff1, Riff2, Riff3
kytara akord Emi (YouSongs.cz)kytara akord C (YouSongs.cz)kytara akord D (YouSongs.cz)kytara akord Ami (YouSongs.cz)kytara akord G (YouSongs.cz)
Akordy ukulele:
ukulele akord Emi (YouSongs.cz)ukulele akord C (YouSongs.cz)ukulele akord D (YouSongs.cz)ukulele akord Ami (YouSongs.cz)ukulele akord G (YouSongs.cz)
Zpět na hlavní stránku QR skladby

Depeche Mode - Strangelove [text a akordy na YouSongs.cz]

Podpoř interpreta

Depeche Mode

Podpoř interpreta Depeche Mode zakoupením skladby nebo alba.

fyzické CD | fyzické LP | stáhnout MP3 | stáhnout FLAC

Zobrazit nabídku skladeb