Skladba: Nevadí (+ sólo)
Intro:
D Dmaj7 D7 G6 Emi A F#7 F#
(F#7-XX4320)
(Pri akorde F# nie je potrebné držať celé baré.
V tejto piesni sa hraje iba na 4 spodných strunách, teda XX4322)
D Dmaj7
Prešiel som prahom, zavrel som dvere,
D7 G6
začul som hudbu inú čo reve.
Emi A
Niečo tam viselo a niečo stálo,
F#7 F# D
nebol večer a nebolo ráno.
Boli tam všetci, ktorých som poznal,
plejáda tvárí, karneval postáv.
Mladí tu sedeli a stáli starí,
nik na to nehrešil, všetci sa smiali.
Niektorí v kabátoch, niektorí nahí,
zdravím ich všetkých kývnutím hlavy.
Anjeli máčajú v inkuste perá
dátum som nevedel dnes ani včera.
Nebolo posledných, nebolo prvých,
každý bol dokola, každý bol uprostred.
Nebolo dole a nebolo hore,
nebolo zlé a nebolo dobré.
Ref.:
Nevadí, nevadí, nevadí, nevadí...
Keď tam, tu tiež to nevadí.
Anjeli máčajú v inkuste perá
a dátum nevieme dnes ani včera.
Nevadí, nevadí, nevadí, nevadí...
Keď tu, tu kor to nevadí.
To iba pri srdci trochu ťa pichlo,
že si tu nikam nič nikdy a nikto.
Nevadí...
Pozrel sa na ňu, skryla si prsia,
obaja vedeli, že stretnúť sa musia.
Počítam, že už spíš, keď toto píšem,
prečítaš, povieš mi, že je to klišé.
Ref.:
Sólo:
(Ddur)
e|10\5---------5----------------5-|-----------------5-7~-------------|
B|--------7-7-8---7~----7-7-8---|7~----7-7-8---------3~--0h3-|
G|------------------------------------|-------------------------------------|
D|------------------------------------|-------------------------------------|
A|------------------------------------|-------------------------------------|
E|------------------------------------|-------------------------------------|
e|------------------------------------------------|-----------------------------7-7-7-9-9-9-|
B|5~--0h3-0h3-0-5/7-5~--0h3-0h3-0-|7/8-7~--0h3-0h3-0-------------------|
G|------------------------------------------------|---------------------------------------------|
D|------------------------------------------------|---------------------------------------------|
A|------------------------------------------------|---------------------------------------------|
E|------------------------------------------------|---------------------------------------------|
e|10\5---------5----------------5-|-----------------5-7~-------------|
B|--------7-7-8---7~----7-7-8---|7~----7-7-8---------3~--0h3-|
G|------------------------------------|-------------------------------------|
D|------------------------------------|-------------------------------------|
A|------------------------------------|-------------------------------------|
E|------------------------------------|-------------------------------------|
e|------------------------------------------------|-----------------------------7-7-7-9-9-9-|10-
B|5~--0h3-0h3-0-5/7-5~--0h3-0h3-0-|7/8-7~--0h3-0h3-0-------------------|----
G|------------------------------------------------|---------------------------------------------|----
D|------------------------------------------------|---------------------------------------------|----
A|------------------------------------------------|---------------------------------------------|----
E|------------------------------------------------|---------------------------------------------|----
h – hammer on
/ – slide up
\ – slide down
~ – vibrato

Akordy kytara:
D, Dmaj7, D7, G6, Emi, A, F#7, F#
kytara akord D (YouSongs.cz)kytara akord Dmaj7 (YouSongs.cz)kytara akord D7 (YouSongs.cz)kytara akord G6 (YouSongs.cz)kytara akord Emi (YouSongs.cz)kytara akord A (YouSongs.cz)kytara akord F#7 (YouSongs.cz)kytara akord F# (YouSongs.cz)
Akordy ukulele:
ukulele akord D (YouSongs.cz)ukulele akord D7 (YouSongs.cz)ukulele akord Emi (YouSongs.cz)ukulele akord A (YouSongs.cz)ukulele akord F#7 (YouSongs.cz)ukulele akord F# (YouSongs.cz)
Zpět na hlavní stránku QR skladby

Geišberg Marián - Nevadí (+ sólo) [text a akordy na YouSongs.cz]

Podpoř interpreta

Geišberg Marián

Podpoř interpreta Geišberg Marián zakoupením skladby nebo alba.

fyzické CD | fyzické LP | stáhnout MP3 | stáhnout FLAC

Zobrazit nabídku skladeb