Skladba: In your head
Autor: Gladiator
Ab5 - 466544
A5 - 577655
C - 332010
F - 133211
Bb5 - 688766
Ref.:
Ab5 A5 C F
/ In your head
Ab5 A5 C F Bb5
/ What's the feeling to fly?
Ab5 A5 C F
/ To meet the friends - the birds,
Ab5 A5 C F Bb5
/ Do you want to jump to blue sky?
Prechod z refrénu
|---------------------|--
|---------------------|--
|*-------------------*|--
|--0---0-2-0-3-2--0---|--
|*-0---0-2-0-3-2--0--*|--
|---------------------|--
Dôrazne
|-------------------|--1-1---1----1--1--|-----------------|--1---|
|-------------------|--1-1---1----1--1--|-----------------|--1---|
|*-----------------*|--2-2---2----2--2--|-----------------|--2---|
|-------------------|--3-3---3----3--3--|-----------------|--3---|
|*-0-2-0-3-0-2-0---*|--3-3---3----3--3--|--0-2-0-3-0-2-0--|--3---|
|--0-2-0-3-0-2-0----|--1-1---1----1--1--|--0-2-0-3-0-2-0--|--1---|
...I was here be-fore
I want to know who am I
Do I live the firs my life.
When? When do I just die?
Who does know?
And I feel, I was here before.
In your head is still cleaner!
Ref.:
I want to know who are you.
Not your body but the soul.
When? When do we just die?
Who does some control?
In your head is still cleaner!
Ref.:
Ref.:...

Akordy kytara:
Ab5, A5, C, F, Bb5
kytara akord C (YouSongs.cz)kytara akord F (YouSongs.cz)
Akordy ukulele:
ukulele akord C (YouSongs.cz)ukulele akord F (YouSongs.cz)
Zpět na hlavní stránku QR skladby

Gladiator - In your head [text a akordy na YouSongs.cz]

Podpoř interpreta

Gladiator

Podpoř interpreta Gladiator zakoupením skladby nebo alba.

fyzické CD | fyzické LP | stáhnout MP3 | stáhnout FLAC

Zobrazit nabídku skladeb