Skladba: Básníci ticha
intro: bez efektů
F Dmi C
bez efektů
C F Dmi C
Básníci ticha - poets of the silence
F Dmi C
básníci samoty - poets of the loness
básníci mlčení - poets of the muteness
básníci beze slov - poets without words
Básníci slepoty - poets of the blindness
básníci bolesti - poets of the pain
básníci ulice - poets of the street
básníci beze slov - poets without words
Sólo: 2x (při opakování se přidává distortion/phaser kytara)
C5 F5 D5 C5 C5 F5 D5 C5
e------------------------------------------------------------------
h-8-------------10--------------8-----8--10-8----------------------
g----9-----10-------10------9------9----------10--10--9------------
d------10---------------12------------------------------12------10-
a-----------------------------------------------------------12-----
e------------------------------------------------------------------
bez efektů
3.
Básníci výkřiku - poets of the scream
básníci zoufalství - poets of the despair
básníci smutku - poets of the sadness
básníci beze slov - poets without words
efekty: jako u sóla
4.
Básníci krve - poets of the blood
básníci šílenství - poets of the madness
básníci výsměchu - poets of the scorn
básníci beze slov - poets without words
Sólo: 4x (při třetím opakování se přidává zpěv)
C F Dmi C C F Dmi C
e------------------------------------------------------------------
h-8-------------10--------------8-----8--10-8----------------------
g----9-----10-------10------9------9----------10--10--9------------
d------10---------------12------------------------------12------10-
a-----------------------------------------------------------12-----
e------------------------------------------------------------------
Básníci...ticha................básníci beze......slov.............

Akordy kytara:
F, Dmi, C
kytara akord F (YouSongs.cz)kytara akord Dmi (YouSongs.cz)kytara akord C (YouSongs.cz)
Akordy ukulele:
ukulele akord F (YouSongs.cz)ukulele akord Dmi (YouSongs.cz)ukulele akord C (YouSongs.cz)
Zpět na hlavní stránku QR skladby

Hlavsa Milan - Básníci ticha [text a akordy na YouSongs.cz]

Podpoř interpreta

Hlavsa Milan

Podpoř interpreta Hlavsa Milan zakoupením skladby nebo alba.

fyzické CD | fyzické LP | stáhnout MP3 | stáhnout FLAC

Zobrazit nabídku skladeb