Skladba: Bicie v 85-tom
Sólo: 4x
E--------------------------------------------
H--------------------------------------------
G--7-5---------------------------------------
D-------7-5-7-5-7------8-7-5-----------------
A--------------------5-5---------8-7-5-------
E--------------------------------------------
D A#
Prečo sa na tom smejete-ha-ha-ha-ha-ha-ha
D A#
Hej Vy tam na tom bidete-ha-ha-ha-ha-ha-ha
G A
ZGuinesovej knihy niektopovytŕhal strany
D G A D
Aodvtedy užnajsamlepšínie sú medzinami
G A
ZGuinesovej knihy niektopovytŕhal strany
D G A D
Aodvtedy užnajsamlepšínie sú medzinami
D A#
Prečo sa na tom smejete-ha-ha-ha-ha-ha-ha
D A#
Jakčínsky boh srandy v Tibete-ha-ha-ha-ha-ha-ha
G A
Nesmejte sa na tom,nesmejte sa na tom,
D G A D
žetakto znelibicie v osemdesiatompiatom
G A
Nesmejte sa na tom,nesmejte sa na tom,
D G A D
Pamätáte sa vosemdesia........tompiatom
Sólo: 4x
E--------------------------------------------
H--------------------------------------------
G--7-5---------------------------------------
D-------7-5-7-5-7------8-7-5-----------------
A--------------------5-5---------8-7-5-------
E--------------------------------------------
D A#
Prečo sa na tom smejete-ha-ha-ha-ha-ha-ha
D A#
Vy o tom chlapci prd viete-ha-ha-ha-ha-ha-ha
G A
Nesmejte sa na tom,nesmejte sa na tom,
D G A D
žetakto znelibicie v osemdesiatom piatom
G A
Nesmejte sa na tom, nesmejte sa na tom,
D G A
Pamätáte sa v osemdesia
D G A
Pamätáte sa v osemdesia
D G A D
Pamätáte sa v osemdesia........tom piatom
E--------------------------------------------
H--------------------------------------------
G--7-5---------------------------------------
D-------7-5-7-5-7------8-7-5-----------------
A--------------------5-5---------8-7-5-------
E--------------------------------------------
E--------------------------------------------
H--------------------------------------------
G--7-5----------------------------------7----
D-------7-5-7-5-7------8-7-5-----------------
A--------------------5-5---------8-7-5-------
E--------------------------------------------

Akordy kytara:
D, A#, G, A
kytara akord D (YouSongs.cz)kytara akord A# (YouSongs.cz)kytara akord G (YouSongs.cz)kytara akord A (YouSongs.cz)
Akordy ukulele:
ukulele akord D (YouSongs.cz)ukulele akord A# (YouSongs.cz)ukulele akord G (YouSongs.cz)ukulele akord A (YouSongs.cz)
Zpět na hlavní stránku QR skladby

Horkýže Slíže - Bicie v 85-tom [text a akordy na YouSongs.cz]

Horkýže Slíže artist image on YouSongs

Podpoř interpreta

Horkýže Slíže

Podpoř interpreta Horkýže Slíže zakoupením skladby nebo alba.

fyzické CD | fyzické LP | stáhnout MP3 | stáhnout FLAC

Zobrazit nabídku skladeb