Skladba: Dole-dole
Videa ke skladbě 1

Videa ke skladbě

Přidat video
sloha:
G# H C A G# H C A
dve deti sa hrajú pred barákom
G# H C A G# H C A
chcú sa velice podobať vojakom
Ref.:
Dole,dole nepadáš ja sa nehrám
už si mal byť dávno mŕtvy na zemi
E---------------------------------------------------------
H---------------------------------------------------------
G---------------------------------------------------------
D--6--4--2--4--2-------6-------------6-4-2-4-2-4-5--7-7-7-
A-7--------------4-5-7---7-6--9----7----------------------
E---------------------------------------------------------
keď narátaš do desať
môžeš vstať a ďalej hrať
E---------------------------
H----6--7--9--9--10--12-----
G--7------------------------
D--------------------------- 2*
A---------------------------
E---------------------------
zakričať si dole-dole,dole veď sme na zemi.
Dole-dole nepadáš...
E-------------------------------
H-------------------------------
G----6--7--6--4--6--4--2--------
D--7----------------------7-7-7-
A-------------------------------
E-------------------------------

Akordy kytara:
G#, H, C, A
kytara akord G# (YouSongs.cz)kytara akord H (YouSongs.cz)kytara akord C (YouSongs.cz)kytara akord A (YouSongs.cz)
Akordy ukulele:
ukulele akord G# (YouSongs.cz)ukulele akord H (YouSongs.cz)ukulele akord C (YouSongs.cz)ukulele akord A (YouSongs.cz)
Zpět na hlavní stránku QR skladby

Horkýže Slíže - Dole-dole [text a akordy na YouSongs.cz]

Horkýže Slíže artist image on YouSongs

Podpoř interpreta

Horkýže Slíže

Podpoř interpreta Horkýže Slíže zakoupením skladby nebo alba.

fyzické CD | fyzické LP | stáhnout MP3 | stáhnout FLAC

Zobrazit nabídku skladeb