Skladba: Nech to tak
Capo: 3
Videa ke skladbě 2

Videa ke skladbě

Přidat video
Kapo 3
Intro 1: Sólo (klávesy),
Ami G Ami
k tomu doprovod kytara 2x
e|-//-8-0-8-6-0-6-8-11-8-//|
h|----------------------------------|
g|----------------------------------|
d|----------------------------------|
a|----------------------------------|
e|----------------------------------|
1.
Ami G
Mám sice dobrej vkus,
Ami
ale líbí se mi všechno,
G
umělá hmota a blues,
Ami
husí i ženský stehno.
G
Přemejšlím o tom dál,
Ami
ale všechno se mi líbí,
G
spánek a žaludskej král,
Ami
živý i leklý ryby.
Ref.:
Ami G E Ami
Nech to tak,on už to někdo spočítá
Nech to tak, on už to někdo spočítá
Nech to tak, on už to někdo spočítá
Nech to tak, on už to někdo spočítá
Druhá kytara hraje do sloky motiv:
Ami - G - Ami
e|-----------------|-----------------|---//-0-0-0-0-0-0-0-6-0-//-|
h|-----------------|-----------------|-----------------------------------|
g|-----------------|-----------------|-----------------------------------|
d|------5-0-------|------0---------|-----------------------------------|
a|-0-6------6-0-|----5----6-5---|-0--------------------------------|
e|-----------------|-6------------6-|-----------------------------------|
Poznámka // v tabech je repetice (opakovat)
Intro 1: stejné jako na začátku
2.
Divím se tomu sám, že se mi všechno líbí
tráva a zavřenej krám, láhev i planý sliby.
Když to tak půjde dál, začnu se sám sobě líbit
proč bych si to tak bral, musím se s tím už smířit
Ref.:
Nech to tak – nechám to tak
on už to někdo spočítá - už to někdo spočítá
Nech to tak – nechám to tak
on už to někdo spočítá - už to někdo spočítá
Nech to tak – nechám to tak
on už to někdo spočítá - už to někdo spočítá
Nech to tak – nechám to tak
on už to někdo spočítá.
Intro 2: hrát dohromady Intro 1 + motiv 2.kytary jako ve sloše, bez zpěvu

Akordy kytara:
Ami, G, E
kytara akord Ami (YouSongs.cz)kytara akord G (YouSongs.cz)kytara akord E (YouSongs.cz)
Akordy ukulele:
ukulele akord Ami (YouSongs.cz)ukulele akord G (YouSongs.cz)ukulele akord E (YouSongs.cz)
Zpět na hlavní stránku QR skladby

Hudba Praha - Nech to tak [text a akordy na YouSongs.cz]

Podpoř interpreta

Hudba Praha

Podpoř interpreta Hudba Praha zakoupením skladby nebo alba.

fyzické CD | fyzické LP | stáhnout MP3 | stáhnout FLAC

Zobrazit nabídku skladeb