Skladba: Mám ísť na vojnu
Autor: HT
e----------------------------------------
h----------------------------------------
g-7------------7----------------7--------
d-7--------5-7-7--------5-7-5-7-7--------
a-5----5-7-----5----5-7-----5-7-5--------
E---------------------------3-5----------
1.
D
Mám ísť na vojnu,
D
mám ísť na vojnu,
G A D
ja mám ísť na vojnu!
2.
A NIE!
A NIE!
A NIE,A NIE A NIE!
3.
Ja tam nepôjdem
ja tam nepôjdem
ani zaboha!
4.
Chodte s vojnou
chodte s vojnou
chodte s vojnou doboha!
solo:
e-13--13--5--7--13
h-13--13--5--7--13
5.
Á preto tam pôjdem,
preto tam pôjdem,
tam sú chlapciako buk!
6.
Budeme tam
onanovať
HEJ RUP,HEJ RUP,HEJ RUP!

Akordy kytara:
D, G, A
kytara akord D (YouSongs.cz)kytara akord G (YouSongs.cz)kytara akord A (YouSongs.cz)
Akordy ukulele:
ukulele akord D (YouSongs.cz)ukulele akord G (YouSongs.cz)ukulele akord A (YouSongs.cz)
Zpět na hlavní stránku QR skladby

HT - Mám ísť na vojnu [text a akordy na YouSongs.cz]

Podpoř interpreta

HT

Podpoř interpreta HT zakoupením skladby nebo alba.

fyzické CD | fyzické LP | stáhnout MP3 | stáhnout FLAC

Zobrazit nabídku skladeb