Skladba: Ďakujem
Videa ke skladbě 1

Videa ke skladbě

Přidat video
Intro:
C
C F G C
Sloha:
C F G C
Ďakujem ti SOZAza zakúpenie voza
C F G C
za sladké chvíle za pohodu
Aj Líru sme vyhrali, aj sály vypredali
Splnil som dobodky dohodu
Potom idú tie bicie...
Riff 1
e|------------------------|–------------------|
B|-----5-6-5----------3-5-|–--5-6-5--------5--|
G|---5---------7-5-7–-----|–5--------7-5-7----|
D|------------------------|–------------------|
A|----------–-------------|-–-----------------|
E|------------------------|--–----------------|
e|------------------------|–------------------|
B|-----5-6-5----------3-5-|–--5-6-5---6-5-–---|
G|---5---------7-5-7–-----|–5-------------7-5-|
D|------------------------|–------------------|
A|----------–-------------|-–-----------------|
E|------------------------|--–----------------|
C F G C
Teraz ma však čakácesta celkominá
C F G C
Po ktorejkráčať musímuž lensám
Tak zbohom ostávajte len v dobrom spomínajte
To všetko platí aj pre Slovgram
Riff
Ja už musím skončiť už na to nemám nervy
Kto má mať na tých mladých náladu
Keď si chcem zaspomínať, jak fajne vtedy bolo
Ta skočím s Vašom dade na kávu
Sólo
Riff 2(odpísaný z tabu od jingischan)
D D4sus Ami D D4sus
e -2---2---3--3–---3--0---0--2--3h2--
H -3-----------3------1--------------
G -2--2-----------2---2--2-----------
D -0-------0--0-------2------0-------
A -----------------------------------
E -----------------------------------
D D4sus
e -2----2-----3----3------------------
H -3----------3-----------------------
G -2--2---2---2--2---2----------------
D -0----------0-----------------------
A ------------------------------------
E ------------------------------------
Recit. riff 2
Tak z bohom ostávajte, len v dobrom spomínajte
Za cvíľu mi to letí na Havaj
Kamaráti buďte, no dlhy si plaťte
Z letiska zdraví váš Kamil, Peter, aj
D G A D
Z letiskazdraví Kamil,Pete,raj (opakovať do fade out)

Akordy kytara:
C, F, G, D, A
kytara akord C (YouSongs.cz)kytara akord F (YouSongs.cz)kytara akord G (YouSongs.cz)kytara akord D (YouSongs.cz)kytara akord A (YouSongs.cz)
Akordy ukulele:
ukulele akord C (YouSongs.cz)ukulele akord F (YouSongs.cz)ukulele akord G (YouSongs.cz)ukulele akord D (YouSongs.cz)ukulele akord A (YouSongs.cz)
Zpět na hlavní stránku QR skladby

Chiki Liki Tu-a - Ďakujem [text a akordy na YouSongs.cz]

Podpoř interpreta

Chiki Liki Tu-a

Podpoř interpreta Chiki Liki Tu-a zakoupením skladby nebo alba.

fyzické CD | fyzické LP | stáhnout MP3 | stáhnout FLAC

Zobrazit nabídku skladeb