Skladba: Laska Moja De Si + taby
Rytmus pri akordoch:
E
e----0-----0--
H----0-----0--
G----1-----1--
D----2-----2--
A----2--2--2--
E-0--0-----0--
A
e----0-----0-
H----2-----2-
G----2-----2-
D----2--2--2-
A-0--0-----0-
E------------
H7
e----2-----2-
H----0-----0-
G----2-----2-
D----1--1--1-
A-2--2-----2-
E------------
D#7 D7
e----3-----2-
H----2-----1-
G-3--3--2--2-
D------------
A------------
E------------
Pomôcka:
Ak sa vám v tej rýchlosti tažko strieda medzi prvou a druhou strunou akordu,
môžte si to ulahcit tak, že striedat proste nebudete.
Napr.:
E
e----0-----0--
H----0-----0--
G----1-----1--
D----2-----2--
A----2-----2--
E-0--0--0--0--
No, dost bolo recí, tu konecne prichádza samotná songa:
E
intro:
E
Odišel mi pred nosom vlak
A
s tebou laska moja.
E
Neviem žit bez teba, lebo
H7
ty si laska moja.
Ref.:
E
Laska moja de si?
A
Chybaš mi, tak de si?
H7 D#7 D7
Laska moja de si?
E
Chybaš mi tak de si?
V bufete si traja chlapi
ticho pijú kavu
a ja chcem pit s nimi, no ne-
mám ani na kavu.
R.
Stojím tu už tri hodiny
a je mi už zima.
Šak ja tu asi zomrem, baby,
jaká mi je zima.
Ref.

Akordy kytara:
E, A, H7, D#7, D7
kytara akord E (YouSongs.cz)kytara akord A (YouSongs.cz)kytara akord H7 (YouSongs.cz)kytara akord D#7 (YouSongs.cz)kytara akord D7 (YouSongs.cz)
Akordy ukulele:
ukulele akord E (YouSongs.cz)ukulele akord A (YouSongs.cz)ukulele akord H7 (YouSongs.cz)ukulele akord D#7 (YouSongs.cz)ukulele akord D7 (YouSongs.cz)
Zpět na hlavní stránku QR skladby

Chiki Liki Tu-a - Laska Moja De Si + taby [text a akordy na YouSongs.cz]

Podpoř interpreta

Chiki Liki Tu-a

Podpoř interpreta Chiki Liki Tu-a zakoupením skladby nebo alba.

fyzické CD | fyzické LP | stáhnout MP3 | stáhnout FLAC

Zobrazit nabídku skladeb