Skladba: Kdeco nám zachutná
Autor: Kabát
Napsal jsem předehru, akordy a sólíčko.
S těma tónečkama co se vybrnkávaj ve slokách
se mi fakt crcat nechtělo. :-D
Vysvětlivka:
15-s-17 je skluz z 15. pražce na sedmnáctý.
Předehra: Tlumeně 8/4
Předehra:
D ------12-14-14-14-12------12------------------------12-12---------------14-14-14-14-14-14
G -15-----------------------15-------15-14-14-14-15-----------15-14-12-----------------
D ------12-14-14-14-12------12------------------------12-12---------------14-14-14-14-14-14
G -15-----------------------15-------15-14-14-14-15-----------15-14-12-----------------
Ami G Dmi Ami
D ------12-14-14-14-12------12------------------------12-12---------------14-14-14-14-14-14
G -15----------------------15-------15-14-14-14-15-----------15-14-12-----------------
C G Dmi Emi
D ------12-14-14-14-12------12------------------------12-12---------------14-14-14-14-14-14
G -15----------------------15--------15-14-14-14-15-----------15-14-12-----------------
Ami G Dmi Ami C
Kdeco nám zachutná, kdeco nás otráví.
G Dmi Emi Ami
Hodinu nultou mezi psem a vlkem budem sví,
G Dmi Ami C
nezůstávej smutná, užij to ve zdraví.
G Dmi Emi
A jestli musíš, tady jsem bude to tajemství.
Ref.:
C G
Ten příběh ráno končí,
Dmi Ami
jak tu dlouho budem stát?
C G
Seno voní, hoří obilí,
Dmi Emi Ami
naše postavy v tom filmu nikdy nebyly.
Mezihra:
Ami G Dmi Ami
D ------12-14-14-14-12------12------------------------12-12---------------14-14-14-14-14-14
G -15----------------------15--------15-14-14-14-15-----------15-14-12-----------------
C G Dmi Emi
D ------12-14-14-14-12------12------------------------12-12---------------14-14-14-14-14-14
G -15----------------------15--------15-14-14-14-15-----------15-14-12-----------------
Nikdy nás nenajdou mokrý a schoulený.
Klidně mi zalži hlavně hřej a pak se opatruj.
Neboj to kolem jsou jen pouhý ozvěny,
barvy se mění, podívej a pamatuj
Ref.:
Ten příběh ráno končí...
Sólo: (akordy jako v refrénu)
G-----------------------------------------------17-----------------16---------------19--------------21-
D---------------------------------------17-----------------17-------------------17--------------19-----
A15-15-17-14----15----15-s-17---------15-s-17-------------15-s-17--------17-s-19--------
E-----------------17----17----------------------------------------------------------------------
Ami G Dmi Ami
Až nám to odezní, budem spát na věky.
C G Dmi
Polštář ti podá čaroděj
Emi
a mávne hůlkou...
Ref.:
Ten příběh ráno končí...

Akordy kytara:
Ami, G, Dmi, C, Emi
kytara akord Ami (YouSongs.cz)kytara akord G (YouSongs.cz)kytara akord Dmi (YouSongs.cz)kytara akord C (YouSongs.cz)kytara akord Emi (YouSongs.cz)
Akordy ukulele:
ukulele akord Ami (YouSongs.cz)ukulele akord G (YouSongs.cz)ukulele akord Dmi (YouSongs.cz)ukulele akord C (YouSongs.cz)ukulele akord Emi (YouSongs.cz)
Zpět na hlavní stránku QR skladby

Kabát - Kdeco nám zachutná [text a akordy na YouSongs.cz]

Kabát artist image on YouSongs

Podpoř interpreta

Kabát

Podpoř interpreta Kabát zakoupením skladby nebo alba.

fyzické CD | fyzické LP | stáhnout MP3 | stáhnout FLAC

Zobrazit nabídku skladeb