Skladba: Potkali se v Paříži
Autor: Kabát
s = skluz
V předehře a ve slokách se hraje přesně toto:
E-------------0---3----------------------------------------------------------------------
H--1---3----1---1----3-----1-----3---3-s-1--1-------------------------------------
G--2---4--------------4-----2-----4---4-s-2------2--1---------2------------------
D---------------------------------------------------------------2------------------------
E--5---3----0---0---3----------------------------------------------------------------------
H--5---5----1---1---1---3------1---3---3-s-1---1--------------------------------------
G---------------------------4------2---4---4-s-2-------2--1--------2-----2------------
D------------------------------------------------------------------2---------------2-------
A------------------------------------------------------------------------0-------------0----
Nebo akordy:
1.
Ami G C G
Potkali se v Paříži,
Ami G Ami E
řek jí hlasem medovym:
Ami G C G
Diskrétně tě víte co...
Ami G Ami E
A nikomu to nepovím.
2.
Ami G C G
Měl skrytou kameru
Ami G Ami E
a ještě k tomu Full HD.
Ami G C G
Chlapík ze severu
Ami G Ami E Ami
a ten, kdo už tuší a ten, kdo to uhádne...
Ref.:
Ami
Ten dostane od nás tu kameru,
E Dmi
včetně těch záběrů od Eiffelovy věže.
E Ami
Žanetu, už je to na netu...
Dmi E
Že burani jsme, máma říká, hochu, ale kdeže?
3.
Potkali se v Kouřimi
a ten kdo to uhádne,
ten dostane od firmy
tolik reklamních kravin,
že to sotva utáhne...
Ref.:
...a k tomu dostane taky tu kameru,
včetně těch záběrů od Eiffelovy věže...
Žanetu, už je to na netu!
Že burani jsme, máma říká, hochu, ale kdeže?
Lá la lá la lá....
A taky kameru..., počkej... Hahahahahaha :-D

Akordy kytara:
Ami, G, C, E, Dmi
kytara akord Ami (YouSongs.cz)kytara akord G (YouSongs.cz)kytara akord C (YouSongs.cz)kytara akord E (YouSongs.cz)kytara akord Dmi (YouSongs.cz)
Akordy ukulele:
ukulele akord Ami (YouSongs.cz)ukulele akord G (YouSongs.cz)ukulele akord C (YouSongs.cz)ukulele akord E (YouSongs.cz)ukulele akord Dmi (YouSongs.cz)
Zpět na hlavní stránku QR skladby

Kabát - Potkali se v Paříži [text a akordy na YouSongs.cz]

Kabát artist image on YouSongs

Podpoř interpreta

Kabát

Podpoř interpreta Kabát zakoupením skladby nebo alba.

fyzické CD | fyzické LP | stáhnout MP3 | stáhnout FLAC

Zobrazit nabídku skladeb