Skladba: Raci v práci (s.r.o.)
Autor: Kabát
Videa ke skladbě 1

Videa ke skladbě

Přidat video
A Amaj7
Na našem rybníku,
A7* A7**
tam v ráji řas a vodníků,
D E A
já sleduju to tiše z povzdálí.
A Amaj7
Ropuchu s medvědem
A7* A7**
od ucha k uchu s úsměvěm,
D E A
to vždycky, když to žabák ubalí.
Už jsou zas v zámoří
sakra slizký úhoři,
ostatním se to zjevně nelíbí.
Připlujou, machrujou,
kdejakou řečí hovoří,
sebevědomí jim nechybí.
Ref.:
A
Jó většina těch malejch ryb,
D A
čeká až bude líp.
D E A
Nechtěj se plácat v bahně, živořit
E
a na dně žít.
A
Hledaj svý místo na slunci,
D A
jak štiky a sumci.
D E A E
No prostě si chtěj holky přilepšit.
Raci v práci rokujou
na hřbetech plotic vyplujou,
prej obklíčit a dobít Rakovník.
Škeble se šklebí na žáby,
žáby si hrajou na dámy,
neb kolem jde krab starý milovník.
Ref.:
F#mi
Červ se kroutí na háku,
D
ty chytrý to maj na háku
F#mi
Řítí se střemhlav nahoru,
D
koukněte na tu potvoru,
E E7
mám dojem, že to dobře neskončí.
A Amaj7 A7* A7** D
e |-----------|-----------|-----------------------|-----0---------|--------------|
h |--2--2--2~-|--2--2--2~-|--2--2--0--2--0--2--0--|--2-----2--2---|--0--------2--|
G |-----------|-----------|-----------------------|---------------|-----2--2-----|
D |-----------|-----------|-----------------------|---------------|--------------|
A |-----------|-----------|-----------------------|---------------|--------------|
E |-----------|-----------|-----------------------|---------------|--------------|
E A E A Amaj7 A7*
|-----------------|-----|--5--4--2-----|--------------|---------|-----------|
|--0--0-----------|--2--|-----------1~-|--1--1--1--1--|--2--2~--|--2--3--4--|
|--------2--1-----|-----|--------------|--------------|---------|-----------|
|--------------2--|-----|--------------|--------------|---------|-----------|
|-----------------|-----|--------------|--------------|---------|-----------|
|-----------------|-----|--------------|--------------|---------|-----------|
A7** D E A E A
|--------------------|-----------|--------------------|-----|-----|-----|
|--5--8--7--5--3--4--|--5--3--3--|--1--0--------0--2--|-----|-----|-----|
|--------------------|-----------|--------2-----------|--2--|-----|--2--|
|--------------------|-----------|-----------4--------|-----|--2--|-----|
|--------------------|-----------|--------------------|-----|-----|-----|
|--------------------|-----------|--------------------|-----|-----|-----|
2x Ref.:
E A
Ref.:
E A E A
A7* x02020
A7** x02023

Akordy kytara:
A, Amaj7, A7*, A7**, D, E, F#mi, E7
kytara akord A (YouSongs.cz)kytara akord Amaj7 (YouSongs.cz)kytara akord D (YouSongs.cz)kytara akord E (YouSongs.cz)kytara akord F#mi (YouSongs.cz)kytara akord E7 (YouSongs.cz)
Akordy ukulele:
ukulele akord A (YouSongs.cz)ukulele akord D (YouSongs.cz)ukulele akord E (YouSongs.cz)ukulele akord F#mi (YouSongs.cz)ukulele akord E7 (YouSongs.cz)
Zpět na hlavní stránku QR skladby

Kabát - Raci v práci (s.r.o.) [text a akordy na YouSongs.cz]

Kabát artist image on YouSongs

Podpoř interpreta

Kabát

Podpoř interpreta Kabát zakoupením skladby nebo alba.

fyzické CD | fyzické LP | stáhnout MP3 | stáhnout FLAC

Zobrazit nabídku skladeb