Skladba: Ráno jedem dál
Autor: Kabát
Videa ke skladbě 2

Videa ke skladbě

Přidat video
Vysvětlivky:
L = Legato... tj, že následující tón nebrnknete trsátkem, ale prstem
levé ruky. V tomto případě malíčkem. (chce to tréning)
S = Skluz (sjezd)
Intro:
D
e | ---3-L-2---3-L-2---3-L-2---3-L-2----------3-L-2---3-L-2--------3-L-2---3-L-2-
h | -----------------------------------------------3----3---3---3--------3----3---3---3-
g | -----------------------------------------2-----------------------2-2-------------------
d | 0-----------------------------------------------------------------------------------
A | ------------------------------------------------------------------------------------
E | ------------------------------------------------------------------------------------
2x
e | ----3-L-2----3-L-2-------3-L-2----3-L-2-
h | ----3----3----3---3-------3---3-----3---3-
g | 2----------------------2--------------------
d | 0----------------------0--------------------
A | ---------------------------------------------
E | ---------------------------------------------
Ref.:
D G D
Ráno jedem dál, nás čeká další sál
Hmi E A
a tam rozjedem znova ten velkej seriál,
D Hmi E A
v něm všechny díly jsou, jak jedno velký show,
D Hmi A D Hmi A
auto, hotel, šatna, scéna a tak dál. ,
1.
D Fis Hmi
V prvním díle vím, že když v dálce zabloudím,
G A D
v druhým stejně najdu dům, kde zpívat mám.
e | -----------------------
h | 12-s-10---10--------
g | 11-s--9-----9---7---
d | -----------------------
A | -----------------------
E | -----------------------
D Fis Hmi
V šatně vybírám, co v tom třetím zazpívám,
G D E A
čtvrtej díl je ze všech nejkratší, a tak ho léta znám.
Ref.:
D G D
Ráno jedem dál, nás čeká další sál
Hmi E A
a tam rozjedem znova ten velkej seriál,
D Hmi E A
v něm všechny díly jsou, jak jedno velký show,
D Hmi A D Hmi A
auto, hotel, šatna, scéna a tak dál. ,
2.
D Fis Hmi
Někdy rád bych byl, aby právě čtvrtej díl
G A D
trval dýl a přišel vícekrát.
e | -----------------------
h | 6-s-7-10------------
g | ------------9-------7--
d | ----------------9-------
A | ----------------------
E | ------------------------
D Fis Hmi
Zvlášť ten pocit mám, když si prdel utírám,
G D E A
v tomhle nejprázdnějším pokoji, kde jsem zůstal sám.
A | 7-7-9-7-7-9-7-7-7-9-7--
E | 5-5-5-5-5-5-5-5-5-5-5--
Ref.:
D G D
Ráno jedem dál, nás čeká další sál
Hmi E A
a tam rozjedem znova ten velkej seriál,
D Hmi E A
v něm všechny díly jsou, jak jedno velký show,
D Hmi A D
auto, hotel, šatna, scéna a tak dál.
Hmi A D
a tak dál.
Hmi A D
a tak dál.
Závěr (CODA)
e | ----------------15-------------12------------------
h | ------12--14------12---14-------15--14--15--
g | -14--------------------------------------------------
d | -------------------------------------------------------
A | -------------------------------------------------------
E | -------------------------------------------------------

Akordy kytara:
D, G, Hmi, E, A, Fis
kytara akord D (YouSongs.cz)kytara akord G (YouSongs.cz)kytara akord Hmi (YouSongs.cz)kytara akord E (YouSongs.cz)kytara akord A (YouSongs.cz)
Akordy ukulele:
ukulele akord D (YouSongs.cz)ukulele akord G (YouSongs.cz)ukulele akord Hmi (YouSongs.cz)ukulele akord E (YouSongs.cz)ukulele akord A (YouSongs.cz)
Zpět na hlavní stránku QR skladby

Kabát - Ráno jedem dál [text a akordy na YouSongs.cz]

Kabát artist image on YouSongs

Podpoř interpreta

Kabát

Podpoř interpreta Kabát zakoupením skladby nebo alba.

fyzické CD | fyzické LP | stáhnout MP3 | stáhnout FLAC

Zobrazit nabídku skladeb