Skladba: Hej čarny ši jak cigán
1.
Ami E Ami E Ami
Hej čarny ši jak cigán, hej jak ja ce ľubíc mam.
E Ami C G Ami E Ami
Hej sama še čudujem, že ja ce ľubujem, že ja ce ľubujem.
2.
Hej neber me na tanec ty moj ľubi frajiru,
hej ale ic po macer a tancuj z maceru, a tancuj z maceru.
3.
A kec ci mac zunuje, hej ta vež sebe šestru,
hej bo ona me nechce do vás za nevestu, do vás za nevestu
4.
Hej Janíčku kaľvine, hej radzi še vidzime,
hej pre našo dva very, rozijs še mušime, rozijs še mušime.
5.
Hej bo ty ši luterán, hej a ja katolička,
hej nezrovnali by še, našo bílé líčka, našo bílé líčka
Hej čarny ši jak cigan (melódia)
E||--0--1--0----------------0--1--0----------------|
B||-------------3--1--0----------------3--1--0-----|
G||-----------------------2----------------------2-|
D||------------------------------------------------|
A||------------------------------------------------|
E||------------------------------------------------|
------------------------------------------0-------|--0--------------||
--0--0--0--0--0----------------0--1-------3--|-----3--1--0----------||
-------------------1-------2--2----------------|----------------2----2--||
-----------------------2------------------------|-------------------||
---------------------------------------------|----------------------||
---------------------------------------------|----------------------||

Akordy kytara:
Ami, E, C, G
kytara akord Ami (YouSongs.cz)kytara akord E (YouSongs.cz)kytara akord C (YouSongs.cz)kytara akord G (YouSongs.cz)
Akordy ukulele:
ukulele akord Ami (YouSongs.cz)ukulele akord E (YouSongs.cz)ukulele akord C (YouSongs.cz)ukulele akord G (YouSongs.cz)
Zpět na hlavní stránku QR skladby

Ľudové piesne (SK) - Hej čarny ši jak cigán [text a akordy na YouSongs.cz]

Podpoř interpreta

Ľudové piesne (SK)

Podpoř interpreta Ľudové piesne (SK) zakoupením skladby nebo alba.

fyzické CD | fyzické LP | stáhnout MP3 | stáhnout FLAC

Zobrazit nabídku skladeb