Skladba: Mala ja frajira
1.
G Ami D7 G
Mala ja frajira, takého jak palec,
Ami D7 G
žedla mi ho mačka, myšlela že šmalec.
G Ami D7 G
|: Tri zvizdočky na nebe, povedala ja tebe,
Ami D7 G
nechoc milý do nás bo ja ne pre tebe. :|
2.
Dumace parobci, že hliboká voda,
že še už chudobná dzivočka nevydá
|: Tri zvizdočky švicili, my dvojo še ľubili,
ket mešačik zašol ta sme dokončili :|
Mala ja frajira (melódia)
E||----------------------------------------------|
B||-------------0--0----------1--0---------------|
G||--0----------------2----2--------2--0----0----|
D||-------0--0-----------------------------------|
A||----------------------------------------------|
E||----------------------------------------------|
----------------------------------------------|
-------------0--0----------1--0---------------|
--0----------------2----2--------2--0----0----|
-------0--0-----------------------------------|
----------------------------------------------|
----------------------------------------------|
------------------------------------------------|
--0--0--0--0--0-------------1--0-----0----------|
--------------------2--2----2--------2-----0--0-|
------------------------------------------------|
------------------------------------------------|
------------------------------------------------|
--------------------------------------------||
-------------0--0----------1--0-------------||
--0----------------2----2--------2--0----0--||
-------0--0---------------------------------||
--------------------------------------------||
--------------------------------------------||

Akordy kytara:
G, Ami, D7
kytara akord G (YouSongs.cz)kytara akord Ami (YouSongs.cz)kytara akord D7 (YouSongs.cz)
Akordy ukulele:
ukulele akord G (YouSongs.cz)ukulele akord Ami (YouSongs.cz)ukulele akord D7 (YouSongs.cz)
Zpět na hlavní stránku QR skladby

Ľudové piesne (SK) - Mala ja frajira [text a akordy na YouSongs.cz]

Podpoř interpreta

Ľudové piesne (SK)

Podpoř interpreta Ľudové piesne (SK) zakoupením skladby nebo alba.

fyzické CD | fyzické LP | stáhnout MP3 | stáhnout FLAC

Zobrazit nabídku skladeb