Skladba: Včera mi švicilo slunečko
Ami Dmi Ami E Ami
1. Včera mi švicilo slunečko, neška mi nešvici.
Ami Dmi Ami E Ami
Včera me ľubelo dzifčatko, neška me neľubi.
C G Ami Dmi Ami E
Bola to švárna Anička, čo mala modré očička,
Ami Dmi Ami E Ami
s ktorou som chodieval na špacír večer do hájička.
2. Trikrát som hájiček obišiel a nič som nezískal.
Moje pocešene plakalo a ja som pri nej stál.
Neplač pocešene mojo, však ja som ci ne na vine,
dva ročky vojačkom muším byc, rozísc še mušime.
Včera mi švicilo slunečko (melódia)
E||---------------------0----0-------------------------------------------||
B||---1--0-----1--0-------------3-------1--0----------0------------------||
G||*--------2--------2-------------------------2--1-------2--------------*||
D||*--------------------------------------------------------------------*||
A||----------------------------------------------------------------------||
E||----------------------------------------------------------------------||
--0--0--0--0-------3----1--0--------------------------------0-------|
----------------1------------------3--3--3--3----0--1----3----------|
--------------------------------------------------------------------|
--------------------------------------------------------------------|
--------------------------------------------------------------------|
--------------------------------------------------------------------|
--------------------0----0------------------------------------------||
--1--0-----1--0-------------3-------1--0----------0-----------------||
--------2--------2--------------------------2--1-------2------------||
--------------------------------------------------------------------||
--------------------------------------------------------------------||
--------------------------------------------------------------------||

Akordy kytara:
Ami, Dmi, E, C, G
kytara akord Ami (YouSongs.cz)kytara akord Dmi (YouSongs.cz)kytara akord E (YouSongs.cz)kytara akord C (YouSongs.cz)kytara akord G (YouSongs.cz)
Akordy ukulele:
ukulele akord Ami (YouSongs.cz)ukulele akord Dmi (YouSongs.cz)ukulele akord E (YouSongs.cz)ukulele akord C (YouSongs.cz)ukulele akord G (YouSongs.cz)
Zpět na hlavní stránku QR skladby

Ľudové piesne (SK) - Včera mi švicilo slunečko [text a akordy na YouSongs.cz]

Podpoř interpreta

Ľudové piesne (SK)

Podpoř interpreta Ľudové piesne (SK) zakoupením skladby nebo alba.

fyzické CD | fyzické LP | stáhnout MP3 | stáhnout FLAC

Zobrazit nabídku skladeb