Skladba: Vešelo še dzivče
1.
Ami E Ami Ami E Ami G C
/: Vešelo še dzivče vešelo še trimaj:/,
Ami D G C Ami E Ami E Ami
a ket ce ohvarjaju, ruža bila ľelia, ta sebe zašpivaj.
2.
/:Tam sebe zašpivaj dze najvecej ľudzi:/,
a tam sebe poplakaj ruža bila ľelia, dze nikdo nevidzi.
Vešelo še dzivče (melódia)
E||----------------------------------------------------------------------|
B||---1----0-------------1----0------------------------------------------|
G||*------------2------------------2--------0----0----------------------*|
D||*--------------------------------------------------0----3----2---2---*|
A||----------------------------------------------------------------------|
E||----------------------------------------------------------------------|
-----------------0-----------------------------------------------------|
-------0----1---------3----1----0--------1----0------------------------|
--2-------------------------------------------------2----1----2--------|
------------------------------------------------------------------3----|
-----------------------------------------------------------------------|
-----------------------------------------------------------------------|
---------------------------------------------||
----------------0----1----0------------------||
-----------2-------------------2--------2----||
--2------------------------------------------||
---------------------------------------------||
---------------------------------------------||

Akordy kytara:
Ami, E, G, C, D
kytara akord Ami (YouSongs.cz)kytara akord E (YouSongs.cz)kytara akord G (YouSongs.cz)kytara akord C (YouSongs.cz)kytara akord D (YouSongs.cz)
Akordy ukulele:
ukulele akord Ami (YouSongs.cz)ukulele akord E (YouSongs.cz)ukulele akord G (YouSongs.cz)ukulele akord C (YouSongs.cz)ukulele akord D (YouSongs.cz)
Zpět na hlavní stránku QR skladby

Ľudové piesne (SK) - Vešelo še dzivče [text a akordy na YouSongs.cz]

Podpoř interpreta

Ľudové piesne (SK)

Podpoř interpreta Ľudové piesne (SK) zakoupením skladby nebo alba.

fyzické CD | fyzické LP | stáhnout MP3 | stáhnout FLAC

Zobrazit nabídku skladeb