Skladba: Pes zakopaný
Odpočúvajte si pesničku a podľa toho hrajte,
dá sa to hrať približne takto podľa tabu.
XXX v tabe znamenajú prázdne struny a rýchle
trsnutie dole hore...ale tak hrajte si to
podľa svojho vkusu
Sloha:
e-------2-----2------2------2-------3-----3-----3------3-------|
h-------3-----3------3------3-------3-----3-----3------3-------|
g-------2-----2------2------2-------0-----0-----0------0-------|
d----0------------0--------------------------------------------|
A----------0-------------0--------------2-----------2----------|
E--------------------------------3-----------3-----------------|
e-----0-----0-----0-----0------2------2------|
h-----2-----2-----2-----2------3------3------|
g-----2-----2-----2-----2------2------2------|
d---------------------------0----------------|
A--0-----------0------------------0----------|
E--------0-----------0-----------------------|
e-------0--x--x--------2-----2-----2-----2-------|
h-------2--x--x--------3-----3-----3-----3-------|
g-------2--x--x--------2-----2-----2-----2-------|
d-------2----------0------------0----------------|
A----0--------------------0------------0---------|
E------------------------------------------------|
Refren: hrať 2x
e------3----3------0-----0-------2-----2-------2-----2----------|
h------3----3------2-----2-------3-----3-------3-----3----------|
g------0----0------2-----2-------2-----2-------2-----2----------|
d----------------------------0-------------0--------------------|
A--------2------0-------------------0-------------0-------------|
E--3------------------0-----------------------------------------|
D
Prekvapiť ma vedia občas vlastné predsudky
G
Ževraj chutí biele víno, tak si sadám pred súdky
A
Doteraz som mala len akostné červené
D A D
Neviem sa rozhodnúť, no to patrí ku žene
D
Svoju pestrú myseľ zamestnávam vo všetkom
G
Rada zvýšim výšku svoju hoc len opätkom
A
V spoločnosti kde som svoja, hneď sa uvoľním
D A D
A na vtipoch smejem sa,hoci nerozumiem im
Ref. 1:
G A D
Žena,žena,žena,žena,žena - súlad treba, rým
G A D
Preto na na na nachvíľu sa zamyslím
Pomaly zvykám si na ženu, s ktorou občas hádam sa
Občas aj v jej slovách zakopaného hľadám psa
No učím sa ju chápať a podporovať v tom
Že môže robiť faux pas a kašľať na bontón
Mením svojho hlasu tón, no farba ostáva
Keď Ti poviem poďme vľavo,myslím poďme doprava
A keď mlčím tak to opäť niečo znamená
Zisťuj,hádaj,pýtaj sa - veď takto som už stvorená
Ref. 2:
Žena,žena,žena,žena,žena - súlad treba, rým
Preto na na na na na nachvíľu sa zamyslím.
Žena, žena,žena, že na preteky treba dvoch
Naše ciele sú aj o behu
A nezabránim obehu
V ľudských názoroch
Za volantom vnímam všetko okrem dopravy
Zrkadielko spätné nech sa vidím nastavím
Zaparkujem rovno,ale nie ešte dnes
naozaj zaparkujem rovno,ale mávam z toho stres
Keď chcem viacej pozornosti, všetko zveličím
Ak po niečom veľmi túžim,tak si dožičím
Keď sa bojím, čokoládou nervy odbúram
V tom momente druhoradá je mi figúra
Ref. 2: Žena,žena....
A prečo sa ja nad tým všetkým zamýšľam
Táto chvíľa tvorivá,ako prišla odišla
Tak idem si ja radšej hľadieť na seba
No začínam byť hladná,tak pred tým pôjdem na kebab
Až potom začnem od seba

Akordy kytara:
D, G, A
kytara akord D (YouSongs.cz)kytara akord G (YouSongs.cz)kytara akord A (YouSongs.cz)
Akordy ukulele:
ukulele akord D (YouSongs.cz)ukulele akord G (YouSongs.cz)ukulele akord A (YouSongs.cz)
Zpět na hlavní stránku QR skladby

Martausová Sima - Pes zakopaný [text a akordy na YouSongs.cz]

Podpoř interpreta

Martausová Sima

Podpoř interpreta Martausová Sima zakoupením skladby nebo alba.

fyzické CD | fyzické LP | stáhnout MP3 | stáhnout FLAC

Zobrazit nabídku skladeb