Skladba: Podobná
e |-------------------------------------------|
h |-------------------------------------------|
G |------5---------------------3----3---3-----|
D |----5---5--------3--------3---3----3---3---|
A |--3------------3---3---1-------------------|
E |-------------1-----------------------------|
e |-------------------------------------------|
h |-------------------------------------------|
G |------5----------------------3---5---3-----|
D |----5---5--------3---------3---3---3---3---|
A |--3------------3---3----1------------------|
E |-------------1-----------------------------|
G# B
Intro: 4x
1.
Cmi F B Cmi F B
Tebe verím , drž ma aj keď utekám
Moje smery občas vedú neviem kam
V teba dúfam, v tebe krása pôvod má
Aj keď fúka, tebe chcem byť podobná
Ref.:
G# B G#
Podobná, tvojim rukám podobná
B G#
Aj keď fúka, podobná
B G# B
Aj keď to bolí, Mária
2.
Teba volím, vždy keď mám sa rozhodnúť
Nedovolím smútku ukradnúť mi hruď
Som len vánok, ale ty ma zaveješ
Pevnou stranou držíš moje nádeje
Ref.: Podobná...
G# B
Daj nám zdravie duší, daj nám zdravie našich tiel
G#
Daj nám pokoj,lásku
B
Chcem mať radosť z tvojich diel
G# B
Sprav ma podľa seba, nauč ma len v tebe rásť
G# B
Chcem sa nebáť, v tebe seba túžim nájsť

Akordy kytara:
G#, B, Cmi, F
kytara akord G# (YouSongs.cz)kytara akord B (YouSongs.cz)kytara akord Cmi (YouSongs.cz)kytara akord F (YouSongs.cz)
Akordy ukulele:
ukulele akord G# (YouSongs.cz)ukulele akord B (YouSongs.cz)ukulele akord Cmi (YouSongs.cz)ukulele akord F (YouSongs.cz)
Zpět na hlavní stránku QR skladby

Martausová Sima - Podobná [text a akordy na YouSongs.cz]

Podpoř interpreta

Martausová Sima

Podpoř interpreta Martausová Sima zakoupením skladby nebo alba.

fyzické CD | fyzické LP | stáhnout MP3 | stáhnout FLAC

Zobrazit nabídku skladeb