Skladba: Díky moc
Autor: Wohnout
Pozn. Akordy jsou pro akustickou verzi.
// Bass tab (hraje se ve slokách), ladění D-drop:
Ami D Dmi Ami
E |-----------------|-----------------|-----------------|-----------------|
H |-----------------|-----------------|-----------------|-----------------|
G |-----------------|-----------------|-----------------|-----------------|
D |-----------------|-----------------|-----------------|-----------------|
A |---------------3-|-3/5-5-3-5-------|-----------------|-----------------|
D |-7---7---7-------|-----------0-0-0-|-3---3---3-3-5---|-7---7---7-6-5-4-|
Ami D Dmi Ami
E |-----------------|-----------------|-----------------|-----------------|
H |-----------------|-----------------|-----------------|-----------------|
G |-----------------|-----------------|-----------------|-----------------|
D |-----------------|-----------------|-----------------|-----------------|
A |---------------3-|-5-5-5-3-5-------|-----------------|-----------------|
D |-3---3---3-------|-----------0-0-0-|-3---3-3-5-3-5-6-|-7---7---7---7---|
Tak jsem vstal a rozepnul si voči,
kouknul se doprava, pak zrak doleva stočil.
A tam jsem psa pohladil proti srsti,
tohle zvíře mě má už hodně dlouho v hrsti.
Ami D Dmi Ami
Ami D Dmi Ami
Pak jsem si uvařil trošku čaje,
votevřel vokno a uviděl jak sníh taje.
Je krásnej den a venku čeká parta,
soudě dle počasí, nám vyšla dobrá karta.
©:
Ami D
Jedou do pekla malý vláčky,
F
možná maj volný sedačky,
Ami
tak si račte nastoupit.
Ami D
Průvodčí mává průkazem,
průkaz je toho důkazem,
F E
že i vy jste si měli lístek zakoupit.
Ref.:
Ami D
Možná, že nebudete souhlasit,
Dmi Ami
nesouhlasit, nesouhlasit,
D
ale bohužel děláme potíže,
Dmi F E
ať každej jsi, díky moc!
Krásnej den uplynul jako voda,
zůstat večer doma by byla asi škoda,
tak půjdem dát šanci dekadenci,
vždyť historii někdy píšou taky psanci.
©: Jedou do pekla malý vláčky...
Ref.: Možná že nebudete souhlasit...
Ref.:
Hmi E
Možná, že nebudete souhlasit,
Emi Hmi
nesouhlasit, nesouhlasit,
E
ale bohužel děláme potíže,
Emi G F#
ať každej jsi, díky moc!
Hmi E Emi Hmi
Díky moc! , Díky moc! (4x)
A dobrou noc!

Akordy kytara:
Ami, D, Dmi, F, E, Hmi, Emi, G, F#
kytara akord Ami (YouSongs.cz)kytara akord D (YouSongs.cz)kytara akord Dmi (YouSongs.cz)kytara akord F (YouSongs.cz)kytara akord E (YouSongs.cz)kytara akord Hmi (YouSongs.cz)kytara akord Emi (YouSongs.cz)kytara akord G (YouSongs.cz)kytara akord F# (YouSongs.cz)
Akordy ukulele:
ukulele akord Ami (YouSongs.cz)ukulele akord D (YouSongs.cz)ukulele akord Dmi (YouSongs.cz)ukulele akord F (YouSongs.cz)ukulele akord E (YouSongs.cz)ukulele akord Hmi (YouSongs.cz)ukulele akord Emi (YouSongs.cz)ukulele akord G (YouSongs.cz)ukulele akord F# (YouSongs.cz)
Zpět na hlavní stránku QR skladby

Wohnout - Díky moc [text a akordy na YouSongs.cz]

Podpoř interpreta

Wohnout

Podpoř interpreta Wohnout zakoupením skladby nebo alba.

fyzické CD | fyzické LP | stáhnout MP3 | stáhnout FLAC

Zobrazit nabídku skladeb