Skladba: Dohasnul
Předehra (2x):
e|--------------------------------------------------
H|--------------------------------------------------
G|--------0-----------0-----------0-----------0-----
D|-----4-----4-----0-----0-----4-----4-----0-----0--
A|--2-----------2-----------0-----------0-----------
E|--------------------------------------------------
e|--------------------------------------------------
H|--------------0-----------------------0-----------
G|-----------0-----0-----------------0-----0--------
D|--------0-----------0-----------0-----------0-----
A|-----2-----------------2-----4-----------------4--
E|--3-----------------------5-----------------------
Intro:
e|--------------------------------------------------
H|--------------------------------------------------
G|--------0-----------0-----------0-----------0-----
D|-----4-----4-----0-----0-----4-----4-----0-----0--
A|--2-----------2-----------0-----------0-----------
E|--------------------------------------------------
Dnes v noci půjdu ven
e|--------------------------------------------------
H|--------------0-----------------------0-----------
G|-----------0-----0-----------------0-----0--------
D|--------0-----------0-----------0-----------0-----
A|-----2-----------------2-----4-----------------4--
E|--3-----------------------5-----------------------
Potichu zpívat bude to dobrý
e|--------------------------------------------------
H|--------------------------------------------------
G|--------0-----------0-----------0-----------0-----
D|-----4-----4-----0-----0-----4-----4-----0-----0--
A|--2-----------2-----------0-----------0-----------
E|--------------------------------------------------
jako leopardi vyskočej
e|--------------------------------------------------
H|--------------0-----------------------0-----------
G|-----------0-----0-----------------0-----0--------
D|--------0-----------0-----------0-----------0-----
A|-----2-----------------2-----4-----------------4--
E|--3-----------------------5-----------------------
melodie císařovny
Hele
Hmi A
tak jo, tak jo
G
opustíme tvoje tělo
Emi
až bude po něm
A
poletí nad koní klecí
Hmi A
Jo, tak jo
G
opustíme tvoje tělo
Emi
budeš tu ležet
A
a potom půjdeš domů
Hmi F#mi G Emi A
Přeci jóóóóóóóóóóóóóóó
Hmi F#mi G Emi A
Přeci jóóóóóóóóóóóóóóó
Mezihra (4x):
E|--9h10--9h10--------------------
B|----------------7h8--7h8--5--3--
G|--------------------------------
D|--------------------------------
A|--------------------------------
E|--------------------------------
Hmi A
Dopolední slunce z dlaždic pálí
G A
do chodidel a figury morový
Hmi A
se nepohnuly, nedívaly, stály
G A
a držely bobříky hrobový
Hmi A
Dopolední slunce z dlaždic pálí
G A
v noci do zad a figury morový
Hmi A
se nepohnuly, neusmály, stály
G A
a zpívaly a zpívaly a zpívaly
Hmi A
Hele tak jo, tak jo
G
opustíme San Piego
Emi
má v sobě oheň
A
a dějou se tu divný věci
Hmi A
jo, tak jo
G
opustíme taky jeho
Emi
bude tu ležet
A
a potom půjde domů
Hmi F#mi G Emi A
Přeci jóóóóóóóóóóóóóóó
Hmi F#mi G Emi A
Přeci jóóóóóóóóóóóóóóó
Hele
Hmi A
tak jo, tak jo
G
opustíme tvoje tělo
Emi
až bude po něm
A
poletí nad koní klecí
Hmi A
Jo, tak jo
G
opustíte moje tělo
Emi
budu tu ležet
A
a potom půjdu domů
Hmi F#mi G Emi A
Přeci jóóóóóóóóóóóóóóó
Hmi F#mi G Emi A
Přeci jóóóóóóóóóóóóóóó
Hele tak jo ...

Akordy kytara:
Hmi, A, G, Emi, F#mi
kytara akord Hmi (YouSongs.cz)kytara akord A (YouSongs.cz)kytara akord G (YouSongs.cz)kytara akord Emi (YouSongs.cz)kytara akord F#mi (YouSongs.cz)
Akordy ukulele:
ukulele akord Hmi (YouSongs.cz)ukulele akord A (YouSongs.cz)ukulele akord G (YouSongs.cz)ukulele akord Emi (YouSongs.cz)ukulele akord F#mi (YouSongs.cz)
Zpět na hlavní stránku QR skladby

Vypsaná fiXa - Dohasnul [text a akordy na YouSongs.cz]

Vypsaná fiXa artist image on YouSongs

Podpoř interpreta

Vypsaná fiXa

Podpoř interpreta Vypsaná fiXa zakoupením skladby nebo alba.

fyzické CD | fyzické LP | stáhnout MP3 | stáhnout FLAC

Zobrazit nabídku skladeb